  0
SECTION
  2
HEADER
  9
$ACADVER
  1
AC1009
  9
$INSBASE
 10
0.0
 20
0.0
 30
0.0
  9
$EXTMIN
 10
0.1922
 20
4.25
 30
0.0
  9
$EXTMAX
 10
7.8812
 20
6.1
 30
0.0
  9
$LIMMIN
 10
0.0
 20
0.0
  9
$LIMMAX
 10
12.0
 20
9.0
  9
$ORTHOMODE
 70
     0
  9
$REGENMODE
 70
     1
  9
$FILLMODE
 70
     1
  9
$QTEXTMODE
 70
     0
  9
$MIRRTEXT
 70
     1
  9
$DRAGMODE
 70
     2
  9
$LTSCALE
 40
1.0
  9
$OSMODE
 70
     0
  9
$ATTMODE
 70
     1
  9
$TEXTSIZE
 40
0.2
  9
$TRACEWID
 40
0.05
  9
$TEXTSTYLE
  7
STANDARD
  9
$CLAYER
  8
0
  9
$CELTYPE
  6
CONTINUOUS
  9
$CECOLOR
 62
   256
  9
$DIMSCALE
 40
1.0
  9
$DIMASZ
 40
0.18
  9
$DIMEXO
 40
0.0625
  9
$DIMDLI
 40
0.38
  9
$DIMRND
 40
0.0
  9
$DIMDLE
 40
0.0
  9
$DIMEXE
 40
0.18
  9
$DIMTP
 40
0.0
  9
$DIMTM
 40
0.0
  9
$DIMTXT
 40
0.18
  9
$DIMCEN
 40
0.09
  9
$DIMTSZ
 40
0.0
  9
$DIMTOL
 70
     0
  9
$DIMLIM
 70
     0
  9
$DIMTIH
 70
     1
  9
$DIMTOH
 70
     1
  9
$DIMSE1
 70
     0
  9
$DIMSE2
 70
     0
  9
$DIMTAD
 70
     0
  9
$DIMZIN
 70
     0
  9
$DIMBLK
  1

  9
$DIMASO
 70
     1
  9
$DIMSHO
 70
     1
  9
$DIMPOST
  1

  9
$DIMAPOST
  1

  9
$DIMALT
 70
     0
  9
$DIMALTD
 70
     2
  9
$DIMALTF
 40
25.4
  9
$DIMLFAC
 40
1.0
  9
$DIMTOFL
 70
     0
  9
$DIMTVP
 40
0.0
  9
$DIMTIX
 70
     0
  9
$DIMSOXD
 70
     0
  9
$DIMSAH
 70
     0
  9
$DIMBLK1
  1

  9
$DIMBLK2
  1

  9
$DIMSTYLE
  2
STANDARD
  9
$DIMCLRD
 70
     0
  9
$DIMCLRE
 70
     0
  9
$DIMCLRT
 70
     0
  9
$DIMTFAC
 40
1.0
  9
$DIMGAP
 40
0.09
  9
$LUNITS
 70
     2
  9
$LUPREC
 70
     4
  9
$AXISMODE
 70
     0
  9
$AXISUNIT
 10
0.0
 20
0.0
  9
$SKETCHINC
 40
0.1
  9
$FILLETRAD
 40
0.0
  9
$AUNITS
 70
     0
  9
$AUPREC
 70
     0
  9
$MENU
  1
acad
  9
$ELEVATION
 40
0.0
  9
$PELEVATION
 40
0.0
  9
$THICKNESS
 40
0.0
  9
$LIMCHECK
 70
     0
  9
$BLIPMODE
 70
     1
  9
$CHAMFERA
 40
0.0
  9
$CHAMFERB
 40
0.0
  9
$SKPOLY
 70
     0
  9
$TDCREATE
 40
2452960.644189815
  9
$TDUPDATE
 40
2452960.644189815
  9
$TDINDWG
 40
0.0000000000
  9
$TDUSRTIMER
 40
0.0000000000
  9
$USRTIMER
 70
     1
  9
$ANGBASE
 50
0.0
  9
$ANGDIR
 70
     0
  9
$PDMODE
 70
     0
  9
$PDSIZE
 40
0.0
  9
$PLINEWID
 40
0.0
  9
$COORDS
 70
     0
  9
$SPLFRAME
 70
     0
  9
$SPLINETYPE
 70
     6
  9
$SPLINESEGS
 70
    10
  9
$ATTDIA
 70
     0
  9
$ATTREQ
 70
     1
  9
$HANDLING
 70
     1
  9
$HANDSEED
  5
7F
  9
$SURFTAB1
 70
     6
  9
$SURFTAB2
 70
     6
  9
$SURFTYPE
 70
     6
  9
$SURFU
 70
     6
  9
$SURFV
 70
     6
  9
$UCSNAME
  2

  9
$UCSORG
 10
0.0
 20
0.0
 30
0.0
  9
$UCSXDIR
 10
1.0
 20
0.0
 30
0.0
  9
$UCSYDIR
 10
0.0
 20
1.0
 30
0.0
  9
$PUCSNAME
  2

  9
$PUCSORG
 10
0.0
 20
0.0
 30
0.0
  9
$PUCSXDIR
 10
1.0
 20
0.0
 30
0.0
  9
$PUCSYDIR
 10
0.0
 20
1.0
 30
0.0
  9
$USERI1
 70
     0
  9
$USERI2
 70
     0
  9
$USERI3
 70
     0
  9
$USERI4
 70
     0
  9
$USERI5
 70
     0
  9
$USERR1
 40
0.0
  9
$USERR2
 40
0.0
  9
$USERR3
 40
0.0
  9
$USERR4
 40
0.0
  9
$USERR5
 40
0.0
  9
$WORLDVIEW
 70
     1
  9
$SHADEDGE
 70
     3
  9
$SHADEDIF
 70
    70
  9
$TILEMODE
 70
     1
  9
$MAXACTVP
 70
    16
  9
$PINSBASE
 10
0.0
 20
0.0
 30
0.0
  9
$PLIMCHECK
 70
     0
  9
$PEXTMIN
 10
-1.000000E+20
 20
-1.000000E+20
 30
-1.000000E+20
  9
$PEXTMAX
 10
-1.000000E+20
 20
-1.000000E+20
 30
-1.000000E+20
  9
$PLIMMIN
 10
0.0
 20
0.0
  9
$PLIMMAX
 10
12.0
 20
9.0
  9
$UNITMODE
 70
     0
  9
$VISRETAIN
 70
     0
  9
$PLINEGEN
 70
     1
  9
$PSLTSCALE
 70
     0
  9
$TREEDEPTH
 70
  3020
  9
$DWGCODEPAGE
  3
ansi_1252
  0
ENDSEC
  0
SECTION
  2
TABLES
  0
TABLE
  2
VPORT
 70
     1
  0
VPORT
  2
*ACTIVE
 70
     0
 10
0.0
 20
0.0
 11
1.0
 21
1.0
 12
0.0
 22
0.0
 13
0.0
 23
0.0
 14
0.0
 24
0.0
 15
0.0
 25
0.0
 16
0.0
 26
0.0
 36
1.0
 17
3.734786
 27
6.45115
 37
0.0
 40
5.2023
 41
1.435821
 42
50.0
 43
26.0115
 44
-26.0115
 50
0.0
 51
0.0
 71
    22
 72
   100
 73
     1
 74
     0
 75
     0
 76
     0
 77
     0
 78
     0
  0
ENDTAB
  0
TABLE
  2
LTYPE
 70
     8
  0
LTYPE
  2
CONTINUOUS
 70
     0
  3
Solid line
 72
    65
 73
     0
 40
0.0
  0
LTYPE
  2
DOT
 70
    64
  3
. . . . . . . . . . . . . . . . . . . . . . . . . . . . . . . . .
 72
    65
 73
     2
 40
0.25
 49
0.0
 49
-0.25
  0
LTYPE
  2
HIDDEN
 70
    64
  3
__ __ __ __ __ __ __ __ __ __ __ __ __ __ __ __ __ __ __ __ __ 
 72
    65
 73
     2
 40
0.375
 49
0.25
 49
-0.125
  0
LTYPE
  2
DASHED
 70
    64
  3
__ __ __ __ __ __ __ __ __ __ __ __ __ __ __ __ __ __ __ __ __
 72
    65
 73
     2
 40
0.75
 49
0.5
 49
-0.25
  0
LTYPE
  2
DASHDOT
 70
    64
  3
__ . __ . __ . __ . __ . __ . __ . __ . __ . __ . __ . __ . _
 72
    65
 73
     4
 40
1.0
 49
0.5
 49
-0.25
 49
0.0
 49
-0.25
  0
LTYPE
  2
DIVIDE
 70
    64
  3
____ . . ____ . . ____ . . ____ . . ____ . . ____ . . ____ . .
 72
    65
 73
     6
 40
1.25
 49
0.5
 49
-0.25
 49
0.0
 49
-0.25
 49
0.0
 49
-0.25
  0
LTYPE
  2
CENTER
 70
    64
  3
____ _ ____ _ ____ _ ____ _ ____ _ ____ _ ____ _ ____ _ ____ _
 72
    65
 73
     4
 40
2.0
 49
1.25
 49
-0.25
 49
0.25
 49
-0.25
  0
LTYPE
  2
HIDDEN2
 70
    64
  3
_ _ _ _ _ _ _ _ _ _ _ _ _ _ _ _ _ _ _ _ _ _ _ _
 72
    65
 73
     2
 40
0.1875
 49
0.125
 49
-0.0625
  0
ENDTAB
  0
TABLE
  2
LAYER
 70
     4
  0
LAYER
  2
0
 70
    64
 62
     7
  6
CONTINUOUS
  0
LAYER
  2
CONSTRUCTION_CLASS
 70
     0
 62
     7
  6
CONTINUOUS
  0
LAYER
  2
PATTERN_CLASS
 70
     0
 62
     7
  6
CONTINUOUS
  0
LAYER
  2
DEFPOINTS
 70
    64
 62
     7
  6
CONTINUOUS
  0
ENDTAB
  0
TABLE
  2
STYLE
 70
     2
  0
STYLE
  2
STANDARD
 70
     0
 40
0.0
 41
1.0
 50
0.0
 71
     0
 42
0.0
  3
txt
  4

  0
STYLE
  2
MONOTXT
 70
     0
 40
0.2
 41
1.0
 50
0.0
 71
     0
 42
0.2
  3
MONOTXT
  4

  0
ENDTAB
  0
TABLE
  2
VIEW
 70
     0
  0
ENDTAB
  0
TABLE
  2
UCS
 70
     0
  0
ENDTAB
  0
TABLE
  2
APPID
 70
     1
  0
APPID
  2
ACAD
 70
     0
  0
ENDTAB
  0
TABLE
  2
DIMSTYLE
 70
     1
  0
DIMSTYLE
  2
STANDARD
 70
     0
  3

  4

  5

  6

  7

 40
1.0
 41
0.18
 42
0.0625
 43
0.38
 44
0.18
 45
0.0
 46
0.0
 47
0.0
 48
0.0
140
0.18
141
0.09
142
0.0
143
25.4
144
1.0
145
0.0
146
1.0
147
0.09
 71
     0
 72
     0
 73
     1
 74
     1
 75
     0
 76
     0
 77
     0
 78
     0
170
     0
171
     2
172
     0
173
     0
174
     0
175
     0
176
     0
177
     0
178
     0
  0
ENDTAB
  0
ENDSEC
  0
SECTION
  2
BLOCKS
  0
BLOCK
  8
DEFPOINTS
  6
CONTINUOUS
 62
     7
  5
35
  2
*M0
 70
     1
 10
0.0
 20
0.0
 30
0.0
  3
*M0
  0
LINE
  8
0
  6
CONTINUOUS
 62
     7
  5
36
 10
7.0625
 20
4.8
 30
0.0
 11
7.5
 21
4.8
 31
0.0
  0
LINE
  8
0
  6
CONTINUOUS
 62
     7
  5
37
 10
7.0625
 20
5.3
 30
0.0
 11
7.5
 21
5.3
 31
0.0
  0
LINE
  8
0
  6
CONTINUOUS
 62
     7
  5
38
 10
7.4
 20
4.7
 30
0.0
 11
7.4
 21
4.6
 31
0.0
  0
LINE
  8
0
  6
CONTINUOUS
 62
     7
  5
39
 10
7.4
 20
5.4
 30
0.0
 11
7.4
 21
5.5
 31
0.0
  0
LINE
  8
0
  6
CONTINUOUS
 62
     7
  5
3A
 10
7.4
 20
5.5
 30
0.0
 11
7.5
 21
5.5
 31
0.0
  0
SOLID
  8
0
  6
CONTINUOUS
 62
     7
  5
3B
 10
7.3833
 20
4.7
 30
0.0
 11
7.4167
 21
4.7
 31
0.0
 12
7.4
 22
4.8
 32
0.0
 13
7.4
 23
4.8
 33
0.0
210
0.0
220
0.0
230
1.0
  0
SOLID
  8
0
  6
CONTINUOUS
 62
     7
  5
3C
 10
7.3833
 20
5.4
 30
0.0
 11
7.4167
 21
5.4
 31
0.0
 12
7.4
 22
5.3
 32
0.0
 13
7.4
 23
5.3
 33
0.0
210
0.0
220
0.0
230
1.0
  0
TEXT
  8
0
  6
CONTINUOUS
 62
     7
  5
3E
 10
7.5655
 20
5.45
 30
0.0
 40
0.1
  1
0.50
  7
MONOTXT
 72
     4
 11
7.7233
 21
5.5
 31
0.0
210
0.0
220
0.0
230
1.0
  0
POINT
  8
DEFPOINTS
  6
CONTINUOUS
 62
     7
  5
3F
 10
7.0
 20
4.8
 30
0.0
  0
POINT
  8
DEFPOINTS
  6
CONTINUOUS
 62
     7
  5
40
 10
7.0
 20
5.3
 30
0.0
  0
POINT
  8
DEFPOINTS
  6
CONTINUOUS
 62
     7
  5
41
 10
7.4
 20
5.3
 30
0.0
  0
ENDBLK
  8
DEFPOINTS
  6
CONTINUOUS
 62
     7
  5
42
  0
BLOCK
  8
DEFPOINTS
  6
CONTINUOUS
 62
     7
  5
45
  2
*M1
 70
     1
 10
0.0
 20
0.0
 30
0.0
  3
*M1
  0
LINE
  8
0
  6
CONTINUOUS
 62
     7
  5
46
 10
0.6
 20
4.7375
 30
0.0
 11
0.6
 21
4.25
 31
0.0
  0
LINE
  8
0
  6
CONTINUOUS
 62
     7
  5
47
 10
7.0
 20
4.7375
 30
0.0
 11
7.0
 21
4.25
 31
0.0
  0
LINE
  8
0
  6
CONTINUOUS
 62
     7
  5
48
 10
0.7
 20
4.35
 30
0.0
 11
3.5683
 21
4.35
 31
0.0
  0
LINE
  8
0
  6
CONTINUOUS
 62
     7
  5
49
 10
6.9
 20
4.35
 30
0.0
 11
4.0317
 21
4.35
 31
0.0
  0
SOLID
  8
0
  6
CONTINUOUS
 62
     7
  5
4A
 10
0.7
 20
4.3667
 30
0.0
 11
0.7
 21
4.3333
 31
0.0
 12
0.6
 22
4.35
 32
0.0
 13
0.6
 23
4.35
 33
0.0
210
0.0
220
0.0
230
1.0
  0
SOLID
  8
0
  6
CONTINUOUS
 62
     7
  5
4B
 10
6.9
 20
4.3667
 30
0.0
 11
6.9
 21
4.3333
 31
0.0
 12
7.0
 22
4.35
 32
0.0
 13
7.0
 23
4.35
 33
0.0
210
0.0
220
0.0
230
1.0
  0
TEXT
  8
0
  6
CONTINUOUS
 62
     7
  5
4C
 10
3.6418
 20
4.3
 30
0.0
 40
0.1
  1
6.40
  7
MONOTXT
 72
     4
 11
3.8
 21
4.35
 31
0.0
210
0.0
220
0.0
230
1.0
  0
POINT
  8
DEFPOINTS
  6
CONTINUOUS
 62
     7
  5
4D
 10
0.6
 20
4.8
 30
0.0
  0
POINT
  8
DEFPOINTS
  6
CONTINUOUS
 62
     7
  5
4E
 10
7.0
 20
4.8
 30
0.0
  0
POINT
  8
DEFPOINTS
  6
CONTINUOUS
 62
     7
  5
4F
 10
7.0
 20
4.35
 30
0.0
  0
ENDBLK
  8
DEFPOINTS
  6
CONTINUOUS
 62
     7
  5
50
  0
BLOCK
  8
DEFPOINTS
  6
CONTINUOUS
 62
     7
  5
53
  2
*M2
 70
     1
 10
0.0
 20
0.0
 30
0.0
  3
*M2
  0
LINE
  8
0
  6
CONTINUOUS
 62
     7
  5
54
 10
0.6
 20
4.7375
 30
0.0
 11
0.6
 21
4.55
 31
0.0
  0
LINE
  8
0
  6
CONTINUOUS
 62
     7
  5
55
 10
3.0
 20
5.5375
 30
0.0
 11
3.0
 21
4.55
 31
0.0
  0
LINE
  8
0
  6
CONTINUOUS
 62
     7
  5
56
 10
0.7
 20
4.65
 30
0.0
 11
1.5683
 21
4.65
 31
0.0
  0
LINE
  8
0
  6
CONTINUOUS
 62
     7
  5
57
 10
2.9
 20
4.65
 30
0.0
 11
2.0317
 21
4.65
 31
0.0
  0
SOLID
  8
0
  6
CONTINUOUS
 62
     7
  5
58
 10
0.7
 20
4.6667
 30
0.0
 11
0.7
 21
4.6333
 31
0.0
 12
0.6
 22
4.65
 32
0.0
 13
0.6
 23
4.65
 33
0.0
210
0.0
220
0.0
230
1.0
  0
SOLID
  8
0
  6
CONTINUOUS
 62
     7
  5
59
 10
2.9
 20
4.6667
 30
0.0
 11
2.9
 21
4.6333
 31
0.0
 12
3.0
 22
4.65
 32
0.0
 13
3.0
 23
4.65
 33
0.0
210
0.0
220
0.0
230
1.0
  0
TEXT
  8
0
  6
CONTINUOUS
 62
     7
  5
5A
 10
1.6394
 20
4.6
 30
0.0
 40
0.1
  1
2.40
  7
MONOTXT
 72
     4
 11
1.8
 21
4.65
 31
0.0
210
0.0
220
0.0
230
1.0
  0
POINT
  8
DEFPOINTS
  6
CONTINUOUS
 62
     7
  5
5B
 10
0.6
 20
4.8
 30
0.0
  0
POINT
  8
DEFPOINTS
  6
CONTINUOUS
 62
     7
  5
5C
 10
3.0
 20
5.6
 30
0.0
  0
POINT
  8
DEFPOINTS
  6
CONTINUOUS
 62
     7
  5
5D
 10
3.0
 20
4.65
 30
0.0
  0
ENDBLK
  8
DEFPOINTS
  6
CONTINUOUS
 62
     7
  5
5E
  0
BLOCK
  8
DEFPOINTS
  6
CONTINUOUS
 62
     7
  5
61
  2
*M3
 70
     1
 10
0.0
 20
0.0
 30
0.0
  3
*M3
  0
LINE
  8
0
  6
CONTINUOUS
 62
     7
  5
62
 10
3.0
 20
5.5375
 30
0.0
 11
3.0
 21
4.55
 31
0.0
  0
LINE
  8
0
  6
CONTINUOUS
 62
     7
  5
63
 10
4.6
 20
5.5375
 30
0.0
 11
4.6
 21
4.55
 31
0.0
  0
LINE
  8
0
  6
CONTINUOUS
 62
     7
  5
64
 10
3.1
 20
4.65
 30
0.0
 11
3.585
 21
4.65
 31
0.0
  0
LINE
  8
0
  6
CONTINUOUS
 62
     7
  5
65
 10
4.5
 20
4.65
 30
0.0
 11
4.015
 21
4.65
 31
0.0
  0
SOLID
  8
0
  6
CONTINUOUS
 62
     7
  5
66
 10
3.1
 20
4.6667
 30
0.0
 11
3.1
 21
4.6333
 31
0.0
 12
3.0
 22
4.65
 32
0.0
 13
3.0
 23
4.65
 33
0.0
210
0.0
220
0.0
230
1.0
  0
SOLID
  8
0
  6
CONTINUOUS
 62
     7
  5
67
 10
4.5
 20
4.6667
 30
0.0
 11
4.5
 21
4.6333
 31
0.0
 12
4.6
 22
4.65
 32
0.0
 13
4.6
 23
4.65
 33
0.0
210
0.0
220
0.0
230
1.0
  0
TEXT
  8
0
  6
CONTINUOUS
 62
     7
  5
68
 10
3.6658
 20
4.6
 30
0.0
 40
0.1
  1
1.60
  7
MONOTXT
 72
     4
 11
3.8
 21
4.65
 31
0.0
210
0.0
220
0.0
230
1.0
  0
POINT
  8
DEFPOINTS
  6
CONTINUOUS
 62
     7
  5
69
 10
3.0
 20
5.6
 30
0.0
  0
POINT
  8
DEFPOINTS
  6
CONTINUOUS
 62
     7
  5
6A
 10
4.6
 20
5.6
 30
0.0
  0
POINT
  8
DEFPOINTS
  6
CONTINUOUS
 62
     7
  5
6B
 10
4.6
 20
4.65
 30
0.0
  0
ENDBLK
  8
DEFPOINTS
  6
CONTINUOUS
 62
     7
  5
6C
  0
BLOCK
  8
DEFPOINTS
  6
CONTINUOUS
 62
     7
  5
6F
  2
*M4
 70
     1
 10
0.0
 20
0.0
 30
0.0
  3
*M4
  0
LINE
  8
0
  6
CONTINUOUS
 62
     7
  5
70
 10
2.9375
 20
5.6
 30
0.0
 11
0.25
 21
5.6
 31
0.0
  0
LINE
  8
0
  6
CONTINUOUS
 62
     7
  5
71
 10
0.5375
 20
4.8
 30
0.0
 11
0.25
 21
4.8
 31
0.0
  0
LINE
  8
0
  6
CONTINUOUS
 62
     7
  5
72
 10
0.35
 20
5.5
 30
0.0
 11
0.35
 21
5.34
 31
0.0
  0
LINE
  8
0
  6
CONTINUOUS
 62
     7
  5
73
 10
0.35
 20
4.9
 30
0.0
 11
0.35
 21
5.06
 31
0.0
  0
SOLID
  8
0
  6
CONTINUOUS
 62
     7
  5
74
 10
0.3333
 20
5.5
 30
0.0
 11
0.3667
 21
5.5
 31
0.0
 12
0.35
 22
5.6
 32
0.0
 13
0.35
 23
5.6
 33
0.0
210
0.0
220
0.0
230
1.0
  0
SOLID
  8
0
  6
CONTINUOUS
 62
     7
  5
75
 10
0.3333
 20
4.9
 30
0.0
 11
0.3667
 21
4.9
 31
0.0
 12
0.35
 22
4.8
 32
0.0
 13
0.35
 23
4.8
 33
0.0
210
0.0
220
0.0
230
1.0
  0
TEXT
  8
0
  6
CONTINUOUS
 62
     7
  5
76
 10
0.1922
 20
5.15
 30
0.0
 40
0.1
  1
0.80
  7
MONOTXT
 72
     4
 11
0.35
 21
5.2
 31
0.0
210
0.0
220
0.0
230
1.0
  0
POINT
  8
DEFPOINTS
  6
CONTINUOUS
 62
     7
  5
77
 10
3.0
 20
5.6
 30
0.0
  0
POINT
  8
DEFPOINTS
  6
CONTINUOUS
 62
     7
  5
78
 10
0.6
 20
4.8
 30
0.0
  0
POINT
  8
DEFPOINTS
  6
CONTINUOUS
 62
     7
  5
79
 10
0.35
 20
4.8
 30
0.0
  0
ENDBLK
  8
DEFPOINTS
  6
CONTINUOUS
 62
     7
  5
7A
  0
ENDSEC
  0
SECTION
  2
ENTITIES
  0
LINE
  8
0
  6
CONTINUOUS
 62
     7
  5
28
 10
3.0
 20
5.6
 30
0.0
 11
4.6
 21
5.6
 31
0.0
  0
LINE
  8
0
  6
CONTINUOUS
 62
     7
  5
29
 10
0.6
 20
4.8
 30
0.0
 11
3.0
 21
5.6
 31
0.0
  0
LINE
  8
0
  6
CONTINUOUS
 62
     7
  5
2A
 10
7.0
 20
4.8
 30
0.0
 11
4.6
 21
5.6
 31
0.0
  0
LINE
  8
0
  6
CONTINUOUS
 62
     7
  5
2B
 10
3.0
 20
6.1
 30
0.0
 11
4.6
 21
6.1
 31
0.0
  0
LINE
  8
0
  6
CONTINUOUS
 62
     7
  5
2C
 10
3.0
 20
6.1
 30
0.0
 11
0.6
 21
5.3
 31
0.0
  0
LINE
  8
0
  6
CONTINUOUS
 62
     7
  5
2D
 10
0.6
 20
5.3
 30
0.0
 11
0.6
 21
4.8
 31
0.0
  0
LINE
  8
0
  6
CONTINUOUS
 62
     7
  5
2E
 10
7.0
 20
5.3
 30
0.0
 11
4.6
 21
6.1
 31
0.0
  0
LINE
  8
0
  6
CONTINUOUS
 62
     7
  5
2F
 10
7.0
 20
4.8
 30
0.0
 11
7.0
 21
5.3
 31
0.0
  0
LINE
  8
0
  6
HIDDEN2
 62
     7
  5
31
 10
3.0
 20
6.1
 30
0.0
 11
3.0
 21
5.6
 31
0.0
  0
LINE
  8
0
  6
HIDDEN2
 62
     7
  5
32
 10
4.6
 20
6.1
 30
0.0
 11
4.6
 21
5.6
 31
0.0
  0
INSERT
  8
DEFPOINTS
  6
CONTINUOUS
 62
     7
  5
43
  2
*M0
 10
0.0
 20
0.0
 30
0.0
210
0.0
220
0.0
230
1.0
  0
INSERT
  8
DEFPOINTS
  6
CONTINUOUS
 62
     7
  5
51
  2
*M1
 10
0.0
 20
0.0
 30
0.0
210
0.0
220
0.0
230
1.0
  0
INSERT
  8
DEFPOINTS
  6
CONTINUOUS
 62
     7
  5
5F
  2
*M2
 10
0.0
 20
0.0
 30
0.0
210
0.0
220
0.0
230
1.0
  0
INSERT
  8
DEFPOINTS
  6
CONTINUOUS
 62
     7
  5
6D
  2
*M3
 10
0.0
 20
0.0
 30
0.0
210
0.0
220
0.0
230
1.0
  0
INSERT
  8
DEFPOINTS
  6
CONTINUOUS
 62
     7
  5
7B
  2
*M4
 10
0.0
 20
0.0
 30
0.0
210
0.0
220
0.0
230
1.0
  0
ENDSEC
  0
EOF
