  0
SECTION
  2
HEADER
  9
$ACADVER
  1
AC1009
  9
$INSBASE
 10
0.0
 20
0.0
 30
0.0
  9
$EXTMIN
 10
0.5638
 20
1.4
 30
0.0
  9
$EXTMAX
 10
10.7766
 20
6.25
 30
0.0
  9
$LIMMIN
 10
0.0
 20
0.0
  9
$LIMMAX
 10
12.0
 20
9.0
  9
$ORTHOMODE
 70
     0
  9
$REGENMODE
 70
     1
  9
$FILLMODE
 70
     1
  9
$QTEXTMODE
 70
     0
  9
$MIRRTEXT
 70
     1
  9
$DRAGMODE
 70
     2
  9
$LTSCALE
 40
1.0
  9
$OSMODE
 70
     0
  9
$ATTMODE
 70
     1
  9
$TEXTSIZE
 40
0.2
  9
$TRACEWID
 40
0.05
  9
$TEXTSTYLE
  7
STANDARD
  9
$CLAYER
  8
0
  9
$CELTYPE
  6
CONTINUOUS
  9
$CECOLOR
 62
   256
  9
$DIMSCALE
 40
1.0
  9
$DIMASZ
 40
0.18
  9
$DIMEXO
 40
0.0625
  9
$DIMDLI
 40
0.38
  9
$DIMRND
 40
0.0
  9
$DIMDLE
 40
0.0
  9
$DIMEXE
 40
0.18
  9
$DIMTP
 40
0.0
  9
$DIMTM
 40
0.0
  9
$DIMTXT
 40
0.18
  9
$DIMCEN
 40
0.09
  9
$DIMTSZ
 40
0.0
  9
$DIMTOL
 70
     0
  9
$DIMLIM
 70
     0
  9
$DIMTIH
 70
     1
  9
$DIMTOH
 70
     1
  9
$DIMSE1
 70
     0
  9
$DIMSE2
 70
     0
  9
$DIMTAD
 70
     0
  9
$DIMZIN
 70
     0
  9
$DIMBLK
  1

  9
$DIMASO
 70
     1
  9
$DIMSHO
 70
     1
  9
$DIMPOST
  1

  9
$DIMAPOST
  1

  9
$DIMALT
 70
     0
  9
$DIMALTD
 70
     2
  9
$DIMALTF
 40
25.4
  9
$DIMLFAC
 40
1.0
  9
$DIMTOFL
 70
     0
  9
$DIMTVP
 40
0.0
  9
$DIMTIX
 70
     0
  9
$DIMSOXD
 70
     0
  9
$DIMSAH
 70
     0
  9
$DIMBLK1
  1

  9
$DIMBLK2
  1

  9
$DIMSTYLE
  2
STANDARD
  9
$DIMCLRD
 70
     0
  9
$DIMCLRE
 70
     0
  9
$DIMCLRT
 70
     0
  9
$DIMTFAC
 40
1.0
  9
$DIMGAP
 40
0.09
  9
$LUNITS
 70
     2
  9
$LUPREC
 70
     4
  9
$AXISMODE
 70
     0
  9
$AXISUNIT
 10
0.0
 20
0.0
  9
$SKETCHINC
 40
0.1
  9
$FILLETRAD
 40
0.0
  9
$AUNITS
 70
     0
  9
$AUPREC
 70
     0
  9
$MENU
  1
acad
  9
$ELEVATION
 40
0.0
  9
$PELEVATION
 40
0.0
  9
$THICKNESS
 40
0.0
  9
$LIMCHECK
 70
     0
  9
$BLIPMODE
 70
     1
  9
$CHAMFERA
 40
0.0
  9
$CHAMFERB
 40
0.0
  9
$SKPOLY
 70
     0
  9
$TDCREATE
 40
2452960.643043981
  9
$TDUPDATE
 40
2452960.643043981
  9
$TDINDWG
 40
0.0000000000
  9
$TDUSRTIMER
 40
0.0000000000
  9
$USRTIMER
 70
     1
  9
$ANGBASE
 50
0.0
  9
$ANGDIR
 70
     0
  9
$PDMODE
 70
     0
  9
$PDSIZE
 40
0.0
  9
$PLINEWID
 40
0.0
  9
$COORDS
 70
     0
  9
$SPLFRAME
 70
     0
  9
$SPLINETYPE
 70
     6
  9
$SPLINESEGS
 70
    10
  9
$ATTDIA
 70
     0
  9
$ATTREQ
 70
     1
  9
$HANDLING
 70
     1
  9
$HANDSEED
  5
128
  9
$SURFTAB1
 70
     6
  9
$SURFTAB2
 70
     6
  9
$SURFTYPE
 70
     6
  9
$SURFU
 70
     6
  9
$SURFV
 70
     6
  9
$UCSNAME
  2

  9
$UCSORG
 10
0.0
 20
0.0
 30
0.0
  9
$UCSXDIR
 10
1.0
 20
0.0
 30
0.0
  9
$UCSYDIR
 10
0.0
 20
1.0
 30
0.0
  9
$PUCSNAME
  2

  9
$PUCSORG
 10
0.0
 20
0.0
 30
0.0
  9
$PUCSXDIR
 10
1.0
 20
0.0
 30
0.0
  9
$PUCSYDIR
 10
0.0
 20
1.0
 30
0.0
  9
$USERI1
 70
     0
  9
$USERI2
 70
     0
  9
$USERI3
 70
     0
  9
$USERI4
 70
     0
  9
$USERI5
 70
     0
  9
$USERR1
 40
0.0
  9
$USERR2
 40
0.0
  9
$USERR3
 40
0.0
  9
$USERR4
 40
0.0
  9
$USERR5
 40
0.0
  9
$WORLDVIEW
 70
     1
  9
$SHADEDGE
 70
     3
  9
$SHADEDIF
 70
    70
  9
$TILEMODE
 70
     1
  9
$MAXACTVP
 70
    16
  9
$PINSBASE
 10
0.0
 20
0.0
 30
0.0
  9
$PLIMCHECK
 70
     0
  9
$PEXTMIN
 10
-1.000000E+20
 20
-1.000000E+20
 30
-1.000000E+20
  9
$PEXTMAX
 10
-1.000000E+20
 20
-1.000000E+20
 30
-1.000000E+20
  9
$PLIMMIN
 10
0.0
 20
0.0
  9
$PLIMMAX
 10
12.0
 20
9.0
  9
$UNITMODE
 70
     0
  9
$VISRETAIN
 70
     0
  9
$PLINEGEN
 70
     1
  9
$PSLTSCALE
 70
     0
  9
$TREEDEPTH
 70
  3020
  9
$DWGCODEPAGE
  3
ansi_1252
  0
ENDSEC
  0
SECTION
  2
TABLES
  0
TABLE
  2
VPORT
 70
     1
  0
VPORT
  2
*ACTIVE
 70
     0
 10
0.0
 20
0.0
 11
1.0
 21
1.0
 12
0.0
 22
0.0
 13
0.0
 23
0.0
 14
0.0
 24
0.0
 15
0.0
 25
0.0
 16
0.0
 26
0.0
 36
1.0
 17
6.361804
 27
4.1682
 37
0.0
 40
5.9364
 41
1.435821
 42
50.0
 43
29.6818
 44
-29.6818
 50
0.0
 51
0.0
 71
    22
 72
   100
 73
     1
 74
     0
 75
     0
 76
     0
 77
     0
 78
     0
  0
ENDTAB
  0
TABLE
  2
LTYPE
 70
     8
  0
LTYPE
  2
CONTINUOUS
 70
     0
  3
Solid line
 72
    65
 73
     0
 40
0.0
  0
LTYPE
  2
DOT
 70
    64
  3
. . . . . . . . . . . . . . . . . . . . . . . . . . . . . . . . .
 72
    65
 73
     2
 40
0.25
 49
0.0
 49
-0.25
  0
LTYPE
  2
HIDDEN
 70
    64
  3
__ __ __ __ __ __ __ __ __ __ __ __ __ __ __ __ __ __ __ __ __ 
 72
    65
 73
     2
 40
0.375
 49
0.25
 49
-0.125
  0
LTYPE
  2
DASHED
 70
    64
  3
__ __ __ __ __ __ __ __ __ __ __ __ __ __ __ __ __ __ __ __ __
 72
    65
 73
     2
 40
0.75
 49
0.5
 49
-0.25
  0
LTYPE
  2
DASHDOT
 70
    64
  3
__ . __ . __ . __ . __ . __ . __ . __ . __ . __ . __ . __ . _
 72
    65
 73
     4
 40
1.0
 49
0.5
 49
-0.25
 49
0.0
 49
-0.25
  0
LTYPE
  2
DIVIDE
 70
    64
  3
____ . . ____ . . ____ . . ____ . . ____ . . ____ . . ____ . .
 72
    65
 73
     6
 40
1.25
 49
0.5
 49
-0.25
 49
0.0
 49
-0.25
 49
0.0
 49
-0.25
  0
LTYPE
  2
CENTER
 70
    64
  3
____ _ ____ _ ____ _ ____ _ ____ _ ____ _ ____ _ ____ _ ____ _
 72
    65
 73
     4
 40
2.0
 49
1.25
 49
-0.25
 49
0.25
 49
-0.25
  0
LTYPE
  2
HIDDEN2
 70
    64
  3
_ _ _ _ _ _ _ _ _ _ _ _ _ _ _ _ _ _ _ _ _ _ _ _
 72
    65
 73
     2
 40
0.1875
 49
0.125
 49
-0.0625
  0
ENDTAB
  0
TABLE
  2
LAYER
 70
     4
  0
LAYER
  2
0
 70
    64
 62
     7
  6
CONTINUOUS
  0
LAYER
  2
CONSTRUCTION_CLASS
 70
     0
 62
     7
  6
CONTINUOUS
  0
LAYER
  2
PATTERN_CLASS
 70
     0
 62
     7
  6
CONTINUOUS
  0
LAYER
  2
DEFPOINTS
 70
    64
 62
     7
  6
CONTINUOUS
  0
ENDTAB
  0
TABLE
  2
STYLE
 70
     2
  0
STYLE
  2
STANDARD
 70
     0
 40
0.0
 41
1.0
 50
0.0
 71
     0
 42
0.0
  3
txt
  4

  0
STYLE
  2
MONOTXT
 70
     0
 40
0.2
 41
1.0
 50
0.0
 71
     0
 42
0.2
  3
MONOTXT
  4

  0
ENDTAB
  0
TABLE
  2
VIEW
 70
     0
  0
ENDTAB
  0
TABLE
  2
UCS
 70
     0
  0
ENDTAB
  0
TABLE
  2
APPID
 70
     1
  0
APPID
  2
ACAD
 70
     0
  0
ENDTAB
  0
TABLE
  2
DIMSTYLE
 70
     1
  0
DIMSTYLE
  2
STANDARD
 70
     0
  3

  4

  5

  6

  7

 40
1.0
 41
0.18
 42
0.0625
 43
0.38
 44
0.18
 45
0.0
 46
0.0
 47
0.0
 48
0.0
140
0.18
141
0.09
142
0.0
143
25.4
144
1.0
145
0.0
146
1.0
147
0.09
 71
     0
 72
     0
 73
     1
 74
     1
 75
     0
 76
     0
 77
     0
 78
     0
170
     0
171
     2
172
     0
173
     0
174
     0
175
     0
176
     0
177
     0
178
     0
  0
ENDTAB
  0
ENDSEC
  0
SECTION
  2
BLOCKS
  0
BLOCK
  8
DEFPOINTS
  6
CONTINUOUS
 62
     7
  5
87
  2
*M0
 70
     1
 10
0.0
 20
0.0
 30
0.0
  3
*M0
  0
LINE
  8
0
  6
CONTINUOUS
 62
     7
  5
88
 10
1.75
 20
5.9625
 30
0.0
 11
1.75
 21
6.2
 31
0.0
  0
LINE
  8
0
  6
CONTINUOUS
 62
     7
  5
89
 10
3.1
 20
5.9625
 30
0.0
 11
3.1
 21
6.2
 31
0.0
  0
LINE
  8
0
  6
CONTINUOUS
 62
     7
  5
8A
 10
1.85
 20
6.15
 30
0.0
 11
2.2017
 21
6.15
 31
0.0
  0
LINE
  8
0
  6
CONTINUOUS
 62
     7
  5
8B
 10
3.0
 20
6.15
 30
0.0
 11
2.6483
 21
6.15
 31
0.0
  0
SOLID
  8
0
  6
CONTINUOUS
 62
     7
  5
8C
 10
1.85
 20
6.1667
 30
0.0
 11
1.85
 21
6.1333
 31
0.0
 12
1.75
 22
6.15
 32
0.0
 13
1.75
 23
6.15
 33
0.0
210
0.0
220
0.0
230
1.0
  0
SOLID
  8
0
  6
CONTINUOUS
 62
     7
  5
8D
 10
3.0
 20
6.1667
 30
0.0
 11
3.0
 21
6.1333
 31
0.0
 12
3.1
 22
6.15
 32
0.0
 13
3.1
 23
6.15
 33
0.0
210
0.0
220
0.0
230
1.0
  0
TEXT
  8
0
  6
CONTINUOUS
 62
     7
  5
8E
 10
2.288
 20
6.1
 30
0.0
 40
0.1
  1
1.35
  7
MONOTXT
 72
     4
 11
2.425
 21
6.15
 31
0.0
210
0.0
220
0.0
230
1.0
  0
POINT
  8
DEFPOINTS
  6
CONTINUOUS
 62
     7
  5
8F
 10
1.75
 20
5.9
 30
0.0
  0
POINT
  8
DEFPOINTS
  6
CONTINUOUS
 62
     7
  5
90
 10
3.1
 20
5.9
 30
0.0
  0
POINT
  8
DEFPOINTS
  6
CONTINUOUS
 62
     7
  5
91
 10
3.1
 20
6.15
 30
0.0
  0
ENDBLK
  8
DEFPOINTS
  6
CONTINUOUS
 62
     7
  5
92
  0
BLOCK
  8
DEFPOINTS
  6
CONTINUOUS
 62
     7
  5
95
  2
*M1
 70
     1
 10
0.0
 20
0.0
 30
0.0
  3
*M1
  0
LINE
  8
0
  6
CONTINUOUS
 62
     7
  5
96
 10
0.9375
 20
4.0
 30
0.0
 11
0.65
 21
4.0
 31
0.0
  0
LINE
  8
0
  6
CONTINUOUS
 62
     7
  5
97
 10
0.9375
 20
5.0
 30
0.0
 11
0.65
 21
5.0
 31
0.0
  0
LINE
  8
0
  6
CONTINUOUS
 62
     7
  5
98
 10
0.7
 20
4.1
 30
0.0
 11
0.7
 21
4.36
 31
0.0
  0
LINE
  8
0
  6
CONTINUOUS
 62
     7
  5
99
 10
0.7
 20
4.9
 30
0.0
 11
0.7
 21
4.64
 31
0.0
  0
SOLID
  8
0
  6
CONTINUOUS
 62
     7
  5
9A
 10
0.6833
 20
4.1
 30
0.0
 11
0.7167
 21
4.1
 31
0.0
 12
0.7
 22
4.0
 32
0.0
 13
0.7
 23
4.0
 33
0.0
210
0.0
220
0.0
230
1.0
  0
SOLID
  8
0
  6
CONTINUOUS
 62
     7
  5
9B
 10
0.6833
 20
4.9
 30
0.0
 11
0.7167
 21
4.9
 31
0.0
 12
0.7
 22
5.0
 32
0.0
 13
0.7
 23
5.0
 33
0.0
210
0.0
220
0.0
230
1.0
  0
TEXT
  8
0
  6
CONTINUOUS
 62
     7
  5
9C
 10
0.5638
 20
4.45
 30
0.0
 40
0.1
  1
1.00
  7
MONOTXT
 72
     4
 11
0.7
 21
4.5
 31
0.0
210
0.0
220
0.0
230
1.0
  0
POINT
  8
DEFPOINTS
  6
CONTINUOUS
 62
     7
  5
9D
 10
1.0
 20
4.0
 30
0.0
  0
POINT
  8
DEFPOINTS
  6
CONTINUOUS
 62
     7
  5
9E
 10
1.0
 20
5.0
 30
0.0
  0
POINT
  8
DEFPOINTS
  6
CONTINUOUS
 62
     7
  5
9F
 10
0.7
 20
5.0
 30
0.0
  0
ENDBLK
  8
DEFPOINTS
  6
CONTINUOUS
 62
     7
  5
A0
  0
BLOCK
  8
DEFPOINTS
  6
CONTINUOUS
 62
     7
  5
A3
  2
*M2
 70
     1
 10
0.0
 20
0.0
 30
0.0
  3
*M2
  0
LINE
  8
0
  6
CONTINUOUS
 62
     7
  5
A4
 10
1.0
 20
3.9375
 30
0.0
 11
1.0
 21
3.7
 31
0.0
  0
LINE
  8
0
  6
CONTINUOUS
 62
     7
  5
A5
 10
1.5
 20
5.2375
 30
0.0
 11
1.5
 21
3.7
 31
0.0
  0
LINE
  8
0
  6
CONTINUOUS
 62
     7
  5
A6
 10
0.9
 20
3.75
 30
0.0
 11
0.8
 21
3.75
 31
0.0
  0
LINE
  8
0
  6
CONTINUOUS
 62
     7
  5
A7
 10
1.6
 20
3.75
 30
0.0
 11
1.7
 21
3.75
 31
0.0
  0
SOLID
  8
0
  6
CONTINUOUS
 62
     7
  5
A8
 10
0.9
 20
3.7667
 30
0.0
 11
0.9
 21
3.7333
 31
0.0
 12
1.0
 22
3.75
 32
0.0
 13
1.0
 23
3.75
 33
0.0
210
0.0
220
0.0
230
1.0
  0
SOLID
  8
0
  6
CONTINUOUS
 62
     7
  5
A9
 10
1.6
 20
3.7667
 30
0.0
 11
1.6
 21
3.7333
 31
0.0
 12
1.5
 22
3.75
 32
0.0
 13
1.5
 23
3.75
 33
0.0
210
0.0
220
0.0
230
1.0
  0
TEXT
  8
0
  6
CONTINUOUS
 62
     7
  5
AA
 10
1.7655
 20
3.7
 30
0.0
 40
0.1
  1
0.50
  7
MONOTXT
 72
     4
 11
1.9233
 21
3.75
 31
0.0
210
0.0
220
0.0
230
1.0
  0
POINT
  8
DEFPOINTS
  6
CONTINUOUS
 62
     7
  5
AB
 10
1.0
 20
4.0
 30
0.0
  0
POINT
  8
DEFPOINTS
  6
CONTINUOUS
 62
     7
  5
AC
 10
1.5
 20
5.3
 30
0.0
  0
POINT
  8
DEFPOINTS
  6
CONTINUOUS
 62
     7
  5
AD
 10
1.5
 20
3.75
 30
0.0
  0
ENDBLK
  8
DEFPOINTS
  6
CONTINUOUS
 62
     7
  5
AE
  0
BLOCK
  8
DEFPOINTS
  6
CONTINUOUS
 62
     7
  5
B1
  2
*M3
 70
     1
 10
0.0
 20
0.0
 30
0.0
  3
*M3
  0
LINE
  8
0
  6
CONTINUOUS
 62
     7
  5
B2
 10
1.0
 20
3.9375
 30
0.0
 11
1.0
 21
3.45
 31
0.0
  0
LINE
  8
0
  6
CONTINUOUS
 62
     7
  5
B3
 10
1.75
 20
5.8375
 30
0.0
 11
1.75
 21
3.45
 31
0.0
  0
LINE
  8
0
  6
CONTINUOUS
 62
     7
  5
B4
 10
0.9
 20
3.5
 30
0.0
 11
0.8
 21
3.5
 31
0.0
  0
LINE
  8
0
  6
CONTINUOUS
 62
     7
  5
B5
 10
1.85
 20
3.5
 30
0.0
 11
1.95
 21
3.5
 31
0.0
  0
SOLID
  8
0
  6
CONTINUOUS
 62
     7
  5
B6
 10
0.9
 20
3.5167
 30
0.0
 11
0.9
 21
3.4833
 31
0.0
 12
1.0
 22
3.5
 32
0.0
 13
1.0
 23
3.5
 33
0.0
210
0.0
220
0.0
230
1.0
  0
SOLID
  8
0
  6
CONTINUOUS
 62
     7
  5
B7
 10
1.85
 20
3.5167
 30
0.0
 11
1.85
 21
3.4833
 31
0.0
 12
1.75
 22
3.5
 32
0.0
 13
1.75
 23
3.5
 33
0.0
210
0.0
220
0.0
230
1.0
  0
TEXT
  8
0
  6
CONTINUOUS
 62
     7
  5
B8
 10
2.0231
 20
3.45
 30
0.0
 40
0.1
  1
0.75
  7
MONOTXT
 72
     4
 11
2.1817
 21
3.5
 31
0.0
210
0.0
220
0.0
230
1.0
  0
POINT
  8
DEFPOINTS
  6
CONTINUOUS
 62
     7
  5
B9
 10
1.0
 20
4.0
 30
0.0
  0
POINT
  8
DEFPOINTS
  6
CONTINUOUS
 62
     7
  5
BA
 10
1.75
 20
5.9
 30
0.0
  0
POINT
  8
DEFPOINTS
  6
CONTINUOUS
 62
     7
  5
BB
 10
1.75
 20
3.5
 30
0.0
  0
ENDBLK
  8
DEFPOINTS
  6
CONTINUOUS
 62
     7
  5
BC
  0
BLOCK
  8
DEFPOINTS
  6
CONTINUOUS
 62
     7
  5
BF
  2
*M4
 70
     1
 10
0.0
 20
0.0
 30
0.0
  3
*M4
  0
LINE
  8
0
  6
CONTINUOUS
 62
     7
  5
C0
 10
1.0
 20
3.9375
 30
0.0
 11
1.0
 21
3.25
 31
0.0
  0
LINE
  8
0
  6
CONTINUOUS
 62
     7
  5
C1
 10
3.9
 20
3.9375
 30
0.0
 11
3.9
 21
3.25
 31
0.0
  0
LINE
  8
0
  6
CONTINUOUS
 62
     7
  5
C2
 10
1.1
 20
3.3
 30
0.0
 11
2.2183
 21
3.3
 31
0.0
  0
LINE
  8
0
  6
CONTINUOUS
 62
     7
  5
C3
 10
3.8
 20
3.3
 30
0.0
 11
2.6817
 21
3.3
 31
0.0
  0
SOLID
  8
0
  6
CONTINUOUS
 62
     7
  5
C4
 10
1.1
 20
3.3167
 30
0.0
 11
1.1
 21
3.2833
 31
0.0
 12
1.0
 22
3.3
 32
0.0
 13
1.0
 23
3.3
 33
0.0
210
0.0
220
0.0
230
1.0
  0
SOLID
  8
0
  6
CONTINUOUS
 62
     7
  5
C5
 10
3.8
 20
3.3167
 30
0.0
 11
3.8
 21
3.2833
 31
0.0
 12
3.9
 22
3.3
 32
0.0
 13
3.9
 23
3.3
 33
0.0
210
0.0
220
0.0
230
1.0
  0
TEXT
  8
0
  6
CONTINUOUS
 62
     7
  5
C6
 10
2.2941
 20
3.25
 30
0.0
 40
0.1
  1
2.90
  7
MONOTXT
 72
     4
 11
2.45
 21
3.3
 31
0.0
210
0.0
220
0.0
230
1.0
  0
POINT
  8
DEFPOINTS
  6
CONTINUOUS
 62
     7
  5
C7
 10
1.0
 20
4.0
 30
0.0
  0
POINT
  8
DEFPOINTS
  6
CONTINUOUS
 62
     7
  5
C8
 10
3.9
 20
4.0
 30
0.0
  0
POINT
  8
DEFPOINTS
  6
CONTINUOUS
 62
     7
  5
C9
 10
3.9
 20
3.3
 30
0.0
  0
ENDBLK
  8
DEFPOINTS
  6
CONTINUOUS
 62
     7
  5
CA
  0
BLOCK
  8
DEFPOINTS
  6
CONTINUOUS
 62
     7
  5
CD
  2
*M5
 70
     1
 10
0.0
 20
0.0
 30
0.0
  3
*M5
  0
LINE
  8
0
  6
CONTINUOUS
 62
     7
  5
CE
 10
0.9375
 20
5.0
 30
0.0
 11
0.65
 21
5.0
 31
0.0
  0
LINE
  8
0
  6
CONTINUOUS
 62
     7
  5
CF
 10
1.4375
 20
5.3
 30
0.0
 11
0.65
 21
5.3
 31
0.0
  0
LINE
  8
0
  6
CONTINUOUS
 62
     7
  5
D0
 10
0.7
 20
4.9
 30
0.0
 11
0.7
 21
4.8
 31
0.0
  0
LINE
  8
0
  6
CONTINUOUS
 62
     7
  5
D1
 10
0.7
 20
5.4
 30
0.0
 11
0.7
 21
5.5
 31
0.0
  0
LINE
  8
0
  6
CONTINUOUS
 62
     7
  5
D2
 10
0.7
 20
5.5
 30
0.0
 11
0.8
 21
5.5
 31
0.0
  0
SOLID
  8
0
  6
CONTINUOUS
 62
     7
  5
D3
 10
0.6833
 20
4.9
 30
0.0
 11
0.7167
 21
4.9
 31
0.0
 12
0.7
 22
5.0
 32
0.0
 13
0.7
 23
5.0
 33
0.0
210
0.0
220
0.0
230
1.0
  0
SOLID
  8
0
  6
CONTINUOUS
 62
     7
  5
D4
 10
0.6833
 20
5.4
 30
0.0
 11
0.7167
 21
5.4
 31
0.0
 12
0.7
 22
5.3
 32
0.0
 13
0.7
 23
5.3
 33
0.0
210
0.0
220
0.0
230
1.0
  0
TEXT
  8
0
  6
CONTINUOUS
 62
     7
  5
D5
 10
0.8655
 20
5.45
 30
0.0
 40
0.1
  1
0.30
  7
MONOTXT
 72
     4
 11
1.0233
 21
5.5
 31
0.0
210
0.0
220
0.0
230
1.0
  0
POINT
  8
DEFPOINTS
  6
CONTINUOUS
 62
     7
  5
D6
 10
1.0
 20
5.0
 30
0.0
  0
POINT
  8
DEFPOINTS
  6
CONTINUOUS
 62
     7
  5
D7
 10
1.5
 20
5.3
 30
0.0
  0
POINT
  8
DEFPOINTS
  6
CONTINUOUS
 62
     7
  5
D8
 10
0.7
 20
5.3
 30
0.0
  0
ENDBLK
  8
DEFPOINTS
  6
CONTINUOUS
 62
     7
  5
D9
  0
BLOCK
  8
DEFPOINTS
  6
CONTINUOUS
 62
     7
  5
DC
  2
*M6
 70
     1
 10
0.0
 20
0.0
 30
0.0
  3
*M6
  0
LINE
  8
0
  6
CONTINUOUS
 62
     7
  5
DD
 10
3.4625
 20
5.3
 30
0.0
 11
4.1
 21
5.3
 31
0.0
  0
LINE
  8
0
  6
CONTINUOUS
 62
     7
  5
DE
 10
3.1625
 20
5.9
 30
0.0
 11
4.1
 21
5.9
 31
0.0
  0
LINE
  8
0
  6
CONTINUOUS
 62
     7
  5
DF
 10
4.05
 20
5.2
 30
0.0
 11
4.05
 21
5.1
 31
0.0
  0
LINE
  8
0
  6
CONTINUOUS
 62
     7
  5
E0
 10
4.05
 20
6.0
 30
0.0
 11
4.05
 21
6.1
 31
0.0
  0
LINE
  8
0
  6
CONTINUOUS
 62
     7
  5
E1
 10
4.05
 20
6.1
 30
0.0
 11
4.15
 21
6.1
 31
0.0
  0
SOLID
  8
0
  6
CONTINUOUS
 62
     7
  5
E2
 10
4.0333
 20
5.2
 30
0.0
 11
4.0667
 21
5.2
 31
0.0
 12
4.05
 22
5.3
 32
0.0
 13
4.05
 23
5.3
 33
0.0
210
0.0
220
0.0
230
1.0
  0
SOLID
  8
0
  6
CONTINUOUS
 62
     7
  5
E3
 10
4.0333
 20
6.0
 30
0.0
 11
4.0667
 21
6.0
 31
0.0
 12
4.05
 22
5.9
 32
0.0
 13
4.05
 23
5.9
 33
0.0
210
0.0
220
0.0
230
1.0
  0
TEXT
  8
0
  6
CONTINUOUS
 62
     7
  5
E4
 10
4.2178
 20
6.05
 30
0.0
 40
0.1
  1
0.60
  7
MONOTXT
 72
     4
 11
4.3733
 21
6.1
 31
0.0
210
0.0
220
0.0
230
1.0
  0
POINT
  8
DEFPOINTS
  6
CONTINUOUS
 62
     7
  5
E5
 10
3.4
 20
5.3
 30
0.0
  0
POINT
  8
DEFPOINTS
  6
CONTINUOUS
 62
     7
  5
E6
 10
3.1
 20
5.9
 30
0.0
  0
POINT
  8
DEFPOINTS
  6
CONTINUOUS
 62
     7
  5
E7
 10
4.05
 20
5.9
 30
0.0
  0
ENDBLK
  8
DEFPOINTS
  6
CONTINUOUS
 62
     7
  5
E8
  0
BLOCK
  8
DEFPOINTS
  6
CONTINUOUS
 62
     7
  5
EB
  2
*M7
 70
     1
 10
0.0
 20
0.0
 30
0.0
  3
*M7
  0
LINE
  8
0
  6
CONTINUOUS
 62
     7
  5
EC
 10
4.9
 20
3.9375
 30
0.0
 11
4.9
 21
3.7
 31
0.0
  0
LINE
  8
0
  6
CONTINUOUS
 62
     7
  5
ED
 10
5.9
 20
4.1875
 30
0.0
 11
5.9
 21
3.7
 31
0.0
  0
LINE
  8
0
  6
CONTINUOUS
 62
     7
  5
EE
 10
5.0
 20
3.75
 30
0.0
 11
5.1933
 21
3.75
 31
0.0
  0
LINE
  8
0
  6
CONTINUOUS
 62
     7
  5
EF
 10
5.8
 20
3.75
 30
0.0
 11
5.6067
 21
3.75
 31
0.0
  0
SOLID
  8
0
  6
CONTINUOUS
 62
     7
  5
F0
 10
5.0
 20
3.7667
 30
0.0
 11
5.0
 21
3.7333
 31
0.0
 12
4.9
 22
3.75
 32
0.0
 13
4.9
 23
3.75
 33
0.0
210
0.0
220
0.0
230
1.0
  0
SOLID
  8
0
  6
CONTINUOUS
 62
     7
  5
F1
 10
5.8
 20
3.7667
 30
0.0
 11
5.8
 21
3.7333
 31
0.0
 12
5.9
 22
3.75
 32
0.0
 13
5.9
 23
3.75
 33
0.0
210
0.0
220
0.0
230
1.0
  0
TEXT
  8
0
  6
CONTINUOUS
 62
     7
  5
F2
 10
5.2638
 20
3.7
 30
0.0
 40
0.1
  1
1.00
  7
MONOTXT
 72
     4
 11
5.4
 21
3.75
 31
0.0
210
0.0
220
0.0
230
1.0
  0
POINT
  8
DEFPOINTS
  6
CONTINUOUS
 62
     7
  5
F3
 10
4.9
 20
4.0
 30
0.0
  0
POINT
  8
DEFPOINTS
  6
CONTINUOUS
 62
     7
  5
F4
 10
5.9
 20
4.25
 30
0.0
  0
POINT
  8
DEFPOINTS
  6
CONTINUOUS
 62
     7
  5
F5
 10
5.9
 20
3.75
 30
0.0
  0
ENDBLK
  8
DEFPOINTS
  6
CONTINUOUS
 62
     7
  5
F6
  0
BLOCK
  8
DEFPOINTS
  6
CONTINUOUS
 62
     7
  5
F9
  2
*M8
 70
     1
 10
0.0
 20
0.0
 30
0.0
  3
*M8
  0
LINE
  8
0
  6
CONTINUOUS
 62
     7
  5
FA
 10
4.8375
 20
4.0
 30
0.0
 11
4.5
 21
4.0
 31
0.0
  0
LINE
  8
0
  6
CONTINUOUS
 62
     7
  5
FB
 10
4.8375
 20
5.9
 30
0.0
 11
4.5
 21
5.9
 31
0.0
  0
LINE
  8
0
  6
CONTINUOUS
 62
     7
  5
FC
 10
4.55
 20
4.1
 30
0.0
 11
4.55
 21
4.81
 31
0.0
  0
LINE
  8
0
  6
CONTINUOUS
 62
     7
  5
FD
 10
4.55
 20
5.8
 30
0.0
 11
4.55
 21
5.09
 31
0.0
  0
SOLID
  8
0
  6
CONTINUOUS
 62
     7
  5
FE
 10
4.5333
 20
4.1
 30
0.0
 11
4.5667
 21
4.1
 31
0.0
 12
4.55
 22
4.0
 32
0.0
 13
4.55
 23
4.0
 33
0.0
210
0.0
220
0.0
230
1.0
  0
SOLID
  8
0
  6
CONTINUOUS
 62
     7
  5
FF
 10
4.5333
 20
5.8
 30
0.0
 11
4.5667
 21
5.8
 31
0.0
 12
4.55
 22
5.9
 32
0.0
 13
4.55
 23
5.9
 33
0.0
210
0.0
220
0.0
230
1.0
  0
TEXT
  8
0
  6
CONTINUOUS
 62
     7
  5
100
 10
4.4158
 20
4.9
 30
0.0
 40
0.1
  1
1.90
  7
MONOTXT
 72
     4
 11
4.55
 21
4.95
 31
0.0
210
0.0
220
0.0
230
1.0
  0
POINT
  8
DEFPOINTS
  6
CONTINUOUS
 62
     7
  5
101
 10
4.9
 20
4.0
 30
0.0
  0
POINT
  8
DEFPOINTS
  6
CONTINUOUS
 62
     7
  5
102
 10
4.9
 20
5.9
 30
0.0
  0
POINT
  8
DEFPOINTS
  6
CONTINUOUS
 62
     7
  5
103
 10
4.55
 20
5.9
 30
0.0
  0
ENDBLK
  8
DEFPOINTS
  6
CONTINUOUS
 62
     7
  5
104
  0
BLOCK
  8
DEFPOINTS
  6
CONTINUOUS
 62
     7
  5
107
  2
*M9
 70
     1
 10
0.0
 20
0.0
 30
0.0
  3
*M9
  0
LINE
  8
0
  6
CONTINUOUS
 62
     7
  5
108
 10
5.9625
 20
5.9
 30
0.0
 11
6.25
 21
5.9
 31
0.0
  0
LINE
  8
0
  6
CONTINUOUS
 62
     7
  5
109
 10
5.9625
 20
4.25
 30
0.0
 11
6.25
 21
4.25
 31
0.0
  0
LINE
  8
0
  6
CONTINUOUS
 62
     7
  5
10A
 10
6.2
 20
5.8
 30
0.0
 11
6.2
 21
5.215
 31
0.0
  0
LINE
  8
0
  6
CONTINUOUS
 62
     7
  5
10B
 10
6.2
 20
4.35
 30
0.0
 11
6.2
 21
4.935
 31
0.0
  0
SOLID
  8
0
  6
CONTINUOUS
 62
     7
  5
10C
 10
6.1833
 20
5.8
 30
0.0
 11
6.2167
 21
5.8
 31
0.0
 12
6.2
 22
5.9
 32
0.0
 13
6.2
 23
5.9
 33
0.0
210
0.0
220
0.0
230
1.0
  0
SOLID
  8
0
  6
CONTINUOUS
 62
     7
  5
10D
 10
6.1833
 20
4.35
 30
0.0
 11
6.2167
 21
4.35
 31
0.0
 12
6.2
 22
4.25
 32
0.0
 13
6.2
 23
4.25
 33
0.0
210
0.0
220
0.0
230
1.0
  0
TEXT
  8
0
  6
CONTINUOUS
 62
     7
  5
10E
 10
6.0654
 20
5.025
 30
0.0
 40
0.1
  1
1.65
  7
MONOTXT
 72
     4
 11
6.2
 21
5.075
 31
0.0
210
0.0
220
0.0
230
1.0
  0
POINT
  8
DEFPOINTS
  6
CONTINUOUS
 62
     7
  5
10F
 10
5.9
 20
5.9
 30
0.0
  0
POINT
  8
DEFPOINTS
  6
CONTINUOUS
 62
     7
  5
110
 10
5.9
 20
4.25
 30
0.0
  0
POINT
  8
DEFPOINTS
  6
CONTINUOUS
 62
     7
  5
111
 10
6.2
 20
4.25
 30
0.0
  0
ENDBLK
  8
DEFPOINTS
  6
CONTINUOUS
 62
     7
  5
112
  0
ENDSEC
  0
SECTION
  2
ENTITIES
  0
LINE
  8
0
  6
CONTINUOUS
 62
     7
  5
28
 10
3.6
 20
4.0
 30
0.0
 11
6.5
 21
4.0
 31
0.0
  0
LINE
  8
0
  6
CONTINUOUS
 62
     7
  5
29
 10
6.5
 20
4.0
 30
0.0
 11
6.5
 21
5.0
 31
0.0
  0
LINE
  8
0
  6
CONTINUOUS
 62
     7
  5
2A
 10
6.5
 20
5.0
 30
0.0
 11
6.0
 21
5.3
 31
0.0
  0
LINE
  8
0
  6
CONTINUOUS
 62
     7
  5
2B
 10
6.0
 20
5.3
 30
0.0
 11
5.7
 21
5.9
 31
0.0
  0
LINE
  8
0
  6
CONTINUOUS
 62
     7
  5
2C
 10
5.7
 20
5.9
 30
0.0
 11
4.35
 21
5.9
 31
0.0
  0
LINE
  8
0
  6
CONTINUOUS
 62
     7
  5
2D
 10
3.6
 20
4.0
 30
0.0
 11
3.6
 21
5.0
 31
0.0
  0
LINE
  8
0
  6
CONTINUOUS
 62
     7
  5
2E
 10
4.1
 20
5.3
 30
0.0
 11
3.6
 21
5.0
 31
0.0
  0
LINE
  8
0
  6
CONTINUOUS
 62
     7
  5
2F
 10
4.35
 20
5.9
 30
0.0
 11
4.1
 21
5.3
 31
0.0
  0
LINE
  8
0
  6
CONTINUOUS
 62
     7
  5
30
 10
7.5
 20
5.9
 30
0.0
 11
8.5
 21
5.9
 31
0.0
  0
LINE
  8
0
  6
HIDDEN2
 62
     7
  5
32
 10
3.6
 20
4.25
 30
0.0
 11
6.5
 21
4.25
 31
0.0
  0
LINE
  8
0
  6
CONTINUOUS
 62
     7
  5
33
 10
8.5
 20
5.9
 30
0.0
 11
8.5
 21
4.25
 31
0.0
  0
LINE
  8
0
  6
HIDDEN2
 62
     7
  5
34
 10
7.7
 20
5.9
 30
0.0
 11
7.7
 21
4.05
 31
0.0
  0
LINE
  8
0
  6
CONTINUOUS
 62
     7
  5
35
 10
3.6
 20
3.0
 30
0.0
 11
6.5
 21
3.0
 31
0.0
  0
LINE
  8
0
  6
HIDDEN2
 62
     7
  5
36
 10
6.5
 20
3.0
 30
0.0
 11
6.5
 21
2.0
 31
0.0
  0
LINE
  8
0
  6
CONTINUOUS
 62
     7
  5
37
 10
4.2876
 20
2.0
 30
0.0
 11
3.6
 21
2.0
 31
0.0
  0
LINE
  8
0
  6
HIDDEN2
 62
     7
  5
38
 10
3.6
 20
2.0
 30
0.0
 11
3.6
 21
3.0
 31
0.0
  0
LINE
  8
0
  6
CONTINUOUS
 62
     7
  5
39
 10
4.35
 20
5.95
 30
0.0
 11
5.7
 21
5.95
 31
0.0
  0
LINE
  8
0
  6
CONTINUOUS
 62
     7
  5
3A
 10
6.55
 20
5.0217
 30
0.0
 11
6.55
 21
4.0
 31
0.0
  0
LINE
  8
0
  6
CONTINUOUS
 62
     7
  5
3B
 10
6.55
 20
4.0
 30
0.0
 11
6.5
 21
4.0
 31
0.0
  0
LINE
  8
0
  6
CONTINUOUS
 62
     7
  5
3C
 10
3.55
 20
5.0217
 30
0.0
 11
3.55
 21
4.0
 31
0.0
  0
LINE
  8
0
  6
CONTINUOUS
 62
     7
  5
3D
 10
3.55
 20
4.0
 30
0.0
 11
3.6
 21
4.0
 31
0.0
  0
LINE
  8
0
  6
CONTINUOUS
 62
     7
  5
3E
 10
6.0
 20
5.3
 30
0.0
 11
6.05
 21
5.35
 31
0.0
  0
LINE
  8
0
  6
CONTINUOUS
 62
     7
  5
3F
 10
6.05
 20
5.35
 30
0.0
 11
6.5257
 21
5.0646
 31
0.0
  0
LINE
  8
0
  6
CONTINUOUS
 62
     7
  5
40
 10
6.5445
 20
5.0445
 30
0.0
 11
6.5
 21
5.0
 31
0.0
  0
LINE
  8
0
  6
CONTINUOUS
 62
     7
  5
41
 10
4.1
 20
5.3
 30
0.0
 11
4.05
 21
5.35
 31
0.0
  0
LINE
  8
0
  6
CONTINUOUS
 62
     7
  5
42
 10
4.05
 20
5.35
 30
0.0
 11
3.5743
 21
5.0646
 31
0.0
  0
LINE
  8
0
  6
CONTINUOUS
 62
     7
  5
43
 10
3.5555
 20
5.0445
 30
0.0
 11
3.6
 21
5.0
 31
0.0
  0
LINE
  8
0
  6
CONTINUOUS
 62
     7
  5
44
 10
4.05
 20
5.35
 30
0.0
 11
4.2872
 21
5.9192
 31
0.0
  0
LINE
  8
0
  6
CONTINUOUS
 62
     7
  5
45
 10
4.3333
 20
5.95
 30
0.0
 11
4.35
 21
5.95
 31
0.0
  0
LINE
  8
0
  6
CONTINUOUS
 62
     7
  5
46
 10
6.05
 20
5.35
 30
0.0
 11
5.7638
 21
5.9224
 31
0.0
  0
LINE
  8
0
  6
CONTINUOUS
 62
     7
  5
47
 10
5.7191
 20
5.95
 30
0.0
 11
5.7
 21
5.95
 31
0.0
  0
LINE
  8
0
  6
CONTINUOUS
 62
     7
  5
48
 10
4.3073
 20
5.9427
 30
0.0
 11
4.35
 21
5.9
 31
0.0
  0
LINE
  8
0
  6
CONTINUOUS
 62
     7
  5
49
 10
5.7436
 20
5.9436
 30
0.0
 11
5.7
 21
5.9
 31
0.0
  0
LINE
  8
0
  6
HIDDEN2
 62
     7
  5
4A
 10
6.5
 20
4.05
 30
0.0
 11
3.6
 21
4.05
 31
0.0
  0
LINE
  8
0
  6
HIDDEN2
 62
     7
  5
4B
 10
7.75
 20
5.9
 30
0.0
 11
7.75
 21
4.0625
 31
0.0
  0
LINE
  8
0
  6
CONTINUOUS
 62
     7
  5
4C
 10
7.5
 20
5.05
 30
0.0
 11
8.5
 21
5.05
 31
0.0
  0
LINE
  8
0
  6
CONTINUOUS
 62
     7
  5
4D
 10
7.5
 20
5.35
 30
0.0
 11
8.5
 21
5.35
 31
0.0
  0
ARC
  8
0
  6
CONTINUOUS
 62
     7
  5
4E
 10
6.5
 20
5.02169
 30
0.0
 40
0.05
 50
0.0
 51
59.036244
210
0.0
220
0.0
230
1.0
  0
ARC
  8
0
  6
CONTINUOUS
 62
     7
  5
4F
 10
3.6
 20
5.02169
 30
0.0
 40
0.05
 50
120.963756
 51
180.0
210
0.0
220
0.0
230
1.0
  0
LINE
  8
0
  6
CONTINUOUS
 62
     7
  5
50
 10
7.5
 20
5.95
 30
0.0
 11
8.5
 21
5.95
 31
0.0
  0
LINE
  8
0
  6
CONTINUOUS
 62
     7
  5
51
 10
8.5
 20
5.95
 30
0.0
 11
8.5
 21
5.9
 31
0.0
  0
LINE
  8
0
  6
CONTINUOUS
 62
     7
  5
52
 10
7.45
 20
5.9
 30
0.0
 11
7.5
 21
5.9
 31
0.0
  0
LINE
  8
0
  6
CONTINUOUS
 62
     7
  5
53
 10
7.45
 20
5.9
 30
0.0
 11
7.45
 21
4.0515
 31
0.0
  0
LINE
  8
0
  6
CONTINUOUS
 62
     7
  5
54
 10
7.5
 20
5.95
 30
0.0
 11
7.45
 21
5.95
 31
0.0
  0
LINE
  8
0
  6
CONTINUOUS
 62
     7
  5
55
 10
7.45
 20
5.95
 30
0.0
 11
7.45
 21
5.9
 31
0.0
  0
LINE
  8
0
  6
CONTINUOUS
 62
     7
  5
56
 10
8.5
 20
4.25
 30
0.0
 11
7.5121
 21
4.003
 31
0.0
  0
LINE
  8
0
  6
CONTINUOUS
 62
     7
  5
57
 10
7.5
 20
4.0
 30
0.0
 11
7.5
 21
5.9
 31
0.0
  0
ARC
  8
0
  6
CONTINUOUS
 62
     7
  5
58
 10
7.5
 20
4.051539
 30
0.0
 40
0.05
 50
180.0
 51
284.036244
210
0.0
220
0.0
230
1.0
  0
ARC
  8
0
  6
CONTINUOUS
 62
     7
  5
59
 10
5.719098
 20
5.9
 30
0.0
 40
0.05
 50
26.56505
 51
90.0
210
0.0
220
0.0
230
1.0
  0
ARC
  8
0
  6
CONTINUOUS
 62
     7
  5
5A
 10
4.333333
 20
5.9
 30
0.0
 40
0.05
 50
90.0
 51
157.380136
210
0.0
220
0.0
230
1.0
  0
LINE
  8
0
  6
HIDDEN2
 62
     7
  5
5B
 10
8.45
 20
5.9
 30
0.0
 11
8.45
 21
4.2375
 31
0.0
  0
LINE
  8
0
  6
HIDDEN2
 62
     7
  5
5C
 10
3.6
 20
2.95
 30
0.0
 11
6.5
 21
2.95
 31
0.0
  0
LINE
  8
0
  6
HIDDEN2
 62
     7
  5
5D
 10
3.6
 20
2.25
 30
0.0
 11
6.5
 21
2.25
 31
0.0
  0
LINE
  8
0
  6
CONTINUOUS
 62
     7
  5
5E
 10
6.5
 20
3.0
 30
0.0
 11
6.55
 21
3.0
 31
0.0
  0
LINE
  8
0
  6
CONTINUOUS
 62
     7
  5
5F
 10
6.55
 20
3.0
 30
0.0
 11
6.55
 21
2.0
 31
0.0
  0
LINE
  8
0
  6
CONTINUOUS
 62
     7
  5
60
 10
6.55
 20
2.0
 30
0.0
 11
6.5
 21
2.0
 31
0.0
  0
LINE
  8
0
  6
CONTINUOUS
 62
     7
  5
61
 10
3.6
 20
3.0
 30
0.0
 11
3.55
 21
3.0
 31
0.0
  0
LINE
  8
0
  6
CONTINUOUS
 62
     7
  5
62
 10
3.55
 20
3.0
 30
0.0
 11
3.55
 21
2.0
 31
0.0
  0
LINE
  8
0
  6
CONTINUOUS
 62
     7
  5
63
 10
3.55
 20
2.0
 30
0.0
 11
3.6
 21
2.0
 31
0.0
  0
LINE
  8
0
  6
CONTINUOUS
 62
     7
  5
64
 10
6.05
 20
3.0
 30
0.0
 11
6.05
 21
2.0
 31
0.0
  0
LINE
  8
0
  6
CONTINUOUS
 62
     7
  5
65
 10
4.05
 20
2.95
 30
0.0
 11
4.05
 21
2.0
 31
0.0
  0
LINE
  8
0
  6
CONTINUOUS
 62
     7
  5
66
 10
5.75
 20
3.0
 30
0.0
 11
5.75
 21
2.0
 31
0.0
  0
LINE
  8
0
  6
CONTINUOUS
 62
     7
  5
67
 10
4.3
 20
3.0
 30
0.0
 11
4.3
 21
2.0
 31
0.0
  0
LINE
  8
0
  6
CONTINUOUS
 62
     7
  5
68
 10
3.55
 20
2.0
 30
0.0
 11
3.55
 21
1.95
 31
0.0
  0
LINE
  8
0
  6
CONTINUOUS
 62
     7
  5
69
 10
3.55
 20
1.95
 30
0.0
 11
4.2757
 21
1.95
 31
0.0
  0
LINE
  8
0
  6
CONTINUOUS
 62
     7
  5
6A
 10
6.55
 20
1.95
 30
0.0
 11
6.55
 21
2.0
 31
0.0
  0
LINE
  8
0
  6
CONTINUOUS
 62
     7
  5
6B
 10
4.05
 20
2.95
 30
0.0
 11
4.05
 21
3.0
 31
0.0
  0
LINE
  8
0
  6
HIDDEN2
 62
     7
  5
6C
 10
4.4072
 20
2.0249
 30
0.0
 11
4.7528
 21
2.1751
 31
0.0
  0
LINE
  8
0
  6
HIDDEN2
 62
     7
  5
6D
 10
4.7714
 20
2.1437
 30
0.0
 11
4.3986
 21
1.9763
 31
0.0
  0
ARC
  8
0
  6
HIDDEN2
 62
     7
  5
6E
 10
4.872396
 20
1.9
 30
0.0
 40
0.3
 50
90.0
 51
113.498567
210
0.0
220
0.0
230
1.0
  0
ARC
  8
0
  6
HIDDEN2
 62
     7
  5
6F
 10
4.894257
 20
1.87
 30
0.0
 40
0.3
 50
90.0
 51
114.179108
210
0.0
220
0.0
230
1.0
  0
ARC
  8
0
  6
HIDDEN2
 62
     7
  5
70
 10
4.287604
 20
2.3
 30
0.0
 40
0.3
 50
270.0
 51
293.498567
210
0.0
220
0.0
230
1.0
  0
ARC
  8
0
  6
HIDDEN2
 62
     7
  5
71
 10
4.275743
 20
2.25
 30
0.0
 40
0.3
 50
270.0
 51
294.179108
210
0.0
220
0.0
230
1.0
  0
LINE
  8
0
  6
CONTINUOUS
 62
     7
  5
72
 10
4.3
 20
2.0
 30
0.0
 11
4.3
 21
1.95
 31
0.0
  0
LINE
  8
0
  6
CONTINUOUS
 62
     7
  5
73
 10
4.3
 20
1.95
 30
0.0
 11
5.03
 21
1.95
 31
0.0
  0
LINE
  8
0
  6
CONTINUOUS
 62
     7
  5
74
 10
5.75
 20
1.95
 30
0.0
 11
5.75
 21
2.0
 31
0.0
  0
LINE
  8
0
  6
HIDDEN2
 62
     7
  5
75
 10
3.6
 20
2.2
 30
0.0
 11
6.5
 21
2.2
 31
0.0
  0
LINE
  8
0
  6
CONTINUOUS
 62
     7
  5
76
 10
6.51
 20
1.95
 30
0.0
 11
5.7843
 21
1.95
 31
0.0
  0
LINE
  8
0
  6
CONTINUOUS
 62
     7
  5
77
 10
5.7724
 20
2.0
 30
0.0
 11
6.46
 21
2.0
 31
0.0
  0
ARC
  8
0
  6
HIDDEN2
 62
     7
  5
78
 10
5.772396
 20
2.3
 30
0.0
 40
0.3
 50
246.501433
 51
270.0
210
0.0
220
0.0
230
1.0
  0
LINE
  8
0
  6
CONTINUOUS
 62
     7
  5
79
 10
5.76
 20
1.95
 30
0.0
 11
5.03
 21
1.95
 31
0.0
  0
ARC
  8
0
  6
HIDDEN2
 62
     7
  5
7A
 10
5.784257
 20
2.25
 30
0.0
 40
0.3
 50
245.820892
 51
270.0
210
0.0
220
0.0
230
1.0
  0
LINE
  8
0
  6
HIDDEN2
 62
     7
  5
7B
 10
5.6528
 20
2.0249
 30
0.0
 11
5.3072
 21
2.1751
 31
0.0
  0
LINE
  8
0
  6
HIDDEN2
 62
     7
  5
7C
 10
5.2886
 20
2.1437
 30
0.0
 11
5.6614
 21
1.9763
 31
0.0
  0
ARC
  8
0
  6
HIDDEN2
 62
     7
  5
7D
 10
5.165743
 20
1.87
 30
0.0
 40
0.3
 50
65.820892
 51
90.0
210
0.0
220
0.0
230
1.0
  0
ARC
  8
0
  6
HIDDEN2
 62
     7
  5
7E
 10
5.187604
 20
1.9
 30
0.0
 40
0.3
 50
66.501433
 51
90.0
210
0.0
220
0.0
230
1.0
  0
LINE
  8
0
  6
HIDDEN2
 62
     7
  5
7F
 10
4.89
 20
2.17
 30
0.0
 11
5.18
 21
2.17
 31
0.0
  0
LINE
  8
0
  6
HIDDEN2
 62
     7
  5
80
 10
6.46
 20
2.0
 30
0.0
 11
6.5
 21
2.0
 31
0.0
  0
LINE
  8
0
  6
HIDDEN2
 62
     7
  5
81
 10
6.51
 20
1.95
 30
0.0
 11
6.55
 21
1.95
 31
0.0
  0
LINE
  8
0
  6
HIDDEN2
 62
     7
  5
82
 10
7.65
 20
5.9
 30
0.0
 11
7.65
 21
4.0375
 31
0.0
  0
TEXT
  8
0
  6
CONTINUOUS
 62
     7
  5
84
 10
7.25
 20
3.0
 30
0.0
 40
0.1
  1
Build from 1/16" Balsa Wood
  7
MONOTXT
210
0.0
220
0.0
230
1.0
  0
INSERT
  8
DEFPOINTS
  6
CONTINUOUS
 62
     7
  5
93
  2
*M0
 10
2.6
 20
0.0
 30
0.0
210
0.0
220
0.0
230
1.0
  0
INSERT
  8
DEFPOINTS
  6
CONTINUOUS
 62
     7
  5
A1
  2
*M1
 10
2.6
 20
0.0
 30
0.0
210
0.0
220
0.0
230
1.0
  0
INSERT
  8
DEFPOINTS
  6
CONTINUOUS
 62
     7
  5
AF
  2
*M2
 10
2.6
 20
0.0
 30
0.0
210
0.0
220
0.0
230
1.0
  0
INSERT
  8
DEFPOINTS
  6
CONTINUOUS
 62
     7
  5
BD
  2
*M3
 10
2.6
 20
0.0
 30
0.0
210
0.0
220
0.0
230
1.0
  0
INSERT
  8
DEFPOINTS
  6
CONTINUOUS
 62
     7
  5
CB
  2
*M4
 10
2.6
 20
0.0
 30
0.0
210
0.0
220
0.0
230
1.0
  0
INSERT
  8
DEFPOINTS
  6
CONTINUOUS
 62
     7
  5
DA
  2
*M5
 10
2.6
 20
0.0
 30
0.0
210
0.0
220
0.0
230
1.0
  0
INSERT
  8
DEFPOINTS
  6
CONTINUOUS
 62
     7
  5
E9
  2
*M6
 10
2.6
 20
0.0
 30
0.0
210
0.0
220
0.0
230
1.0
  0
INSERT
  8
DEFPOINTS
  6
CONTINUOUS
 62
     7
  5
F7
  2
*M7
 10
2.6
 20
0.0
 30
0.0
210
0.0
220
0.0
230
1.0
  0
INSERT
  8
DEFPOINTS
  6
CONTINUOUS
 62
     7
  5
105
  2
*M8
 10
2.6
 20
0.0
 30
0.0
210
0.0
220
0.0
230
1.0
  0
INSERT
  8
DEFPOINTS
  6
CONTINUOUS
 62
     7
  5
113
  2
*M9
 10
2.6
 20
0.0
 30
0.0
210
0.0
220
0.0
230
1.0
  0
SOLID
  8
0
  6
CONTINUOUS
 62
     7
  5
114
 10
3.8611
 20
2.9013
 30
0.0
 11
3.8817
 21
2.8751
 31
0.0
 12
3.95
 22
2.95
 32
0.0
 13
3.95
 23
2.95
 33
0.0
210
0.0
220
0.0
230
1.0
  0
LINE
  8
0
  6
CONTINUOUS
 62
     7
  5
115
 10
3.8714
 20
2.8882
 30
0.0
 11
3.25
 21
2.4
 31
0.0
  0
LINE
  8
0
  6
CONTINUOUS
 62
     7
  5
116
 10
3.25
 20
2.4
 30
0.0
 11
3.15
 21
2.4
 31
0.0
  0
TEXT
  8
0
  6
CONTINUOUS
 62
     7
  5
117
 10
2.5719
 20
2.35
 30
0.0
 40
0.1
  1
Rear B
  7
MONOTXT
 72
     2
 11
3.06
 21
2.4
 31
0.0
210
0.0
220
0.0
230
1.0
 73
     2
  0
SOLID
  8
0
  6
CONTINUOUS
 62
     7
  5
118
 10
3.8707
 20
2.1368
 30
0.0
 11
3.8955
 21
2.1145
 31
0.0
 12
3.95
 22
2.2
 32
0.0
 13
3.95
 23
2.2
 33
0.0
210
0.0
220
0.0
230
1.0
  0
LINE
  8
0
  6
CONTINUOUS
 62
     7
  5
119
 10
3.8831
 20
2.1257
 30
0.0
 11
3.5
 21
1.7
 31
0.0
  0
LINE
  8
0
  6
CONTINUOUS
 62
     7
  5
11A
 10
3.5
 20
1.7
 30
0.0
 11
3.4
 21
1.7
 31
0.0
  0
TEXT
  8
0
  6
CONTINUOUS
 62
     7
  5
11B
 10
2.755
 20
1.65
 30
0.0
 40
0.1
  1
Front A
  7
MONOTXT
 72
     2
 11
3.31
 21
1.7
 31
0.0
210
0.0
220
0.0
230
1.0
 73
     2
  0
TEXT
  8
0
  6
CONTINUOUS
 62
     7
  5
11C
 10
7.3
 20
2.7
 30
0.0
 40
0.1
  1
1. Create Parts A & B
  7
MONOTXT
210
0.0
220
0.0
230
1.0
  0
TEXT
  8
0
  6
CONTINUOUS
 62
     7
  5
11D
 10
7.3
 20
2.5333
 30
0.0
 40
0.1
  1
2. Glue top Surface to A & B
  7
MONOTXT
210
0.0
220
0.0
230
1.0
  0
TEXT
  8
0
  6
CONTINUOUS
 62
     7
  5
11E
 10
7.3
 20
2.3667
 30
0.0
 40
0.1
  1
3 Glue Side Surfaces to close Structure
  7
MONOTXT
210
0.0
220
0.0
230
1.0
  0
TEXT
  8
0
  6
CONTINUOUS
 62
     7
  5
11F
 10
7.3
 20
2.2
 30
0.0
 40
0.1
  1
4. Create Part C
  7
MONOTXT
210
0.0
220
0.0
230
1.0
  0
TEXT
  8
0
  6
CONTINUOUS
 62
     7
  5
120
 10
7.3
 20
2.0333
 30
0.0
 40
0.1
  1
5. Glue C into Place Allowing wood to Curve
  7
MONOTXT
210
0.0
220
0.0
230
1.0
  0
SOLID
  8
0
  6
CONTINUOUS
 62
     7
  5
121
 10
5.406
 20
2.0121
 30
0.0
 11
5.4234
 21
1.9836
 31
0.0
 12
5.5
 22
2.05
 32
0.0
 13
5.5
 23
2.05
 33
0.0
210
0.0
220
0.0
230
1.0
  0
LINE
  8
0
  6
CONTINUOUS
 62
     7
  5
122
 10
5.4147
 20
1.9979
 30
0.0
 11
4.6
 21
1.5
 31
0.0
  0
LINE
  8
0
  6
CONTINUOUS
 62
     7
  5
123
 10
4.6
 20
1.5
 30
0.0
 11
4.5
 21
1.5
 31
0.0
  0
TEXT
  8
0
  6
CONTINUOUS
 62
     7
  5
124
 10
2.5825
 20
1.45
 30
0.0
 40
0.1
  1
Front C (Grain Vertical)
  7
MONOTXT
 72
     2
 11
4.41
 21
1.5
 31
0.0
210
0.0
220
0.0
230
1.0
 73
     2
  0
ENDSEC
  0
EOF
